Emre Aydın - Beni Unutma

Emre Aydın

Emre Aydın - Beni Unutma

Intro:

     Q    Q    Q    Q       W                 
E||----------------------|-------------------|
B||-----------------2----|--L----------------|
G||------------2---------|-------------------|
D||-------4--------------|-------------------|
A||----------------------|-------------------|
E||--2-------------------|-------------------|


  Q    Q    Q    Q       W                   Q    H.            
----------------------|-------------------|--------------------|
-----------------0----|--L----------------|--------------------|
-------1----2---------|-------------------|-------2------------|
----------------------|-------------------|--0-----------------|
----------------------|-------------------|--------------------|
--0-------------------|-------------------|--------------------|


  Q    Q    E  E  Q       E  E  H.              W                 
-----------------------|---------------------|-------------------|
-----------------------|---------------------|-------------------|
--L---------------1----|---------------------|-------------------|
---------------2-------|--------4------------|--L----------------|
------------4----------|-----4---------------|-------------------|
-----------------------|--2------------------|-------------------|


  Q    Q    Q    Q       W                   Q    Q    Q    Q     
----------------------|-------------------|----------------------|
-----------------2----|--L----------------|-----------------0----|
------------2---------|-------------------|-------1----2---------|
-------4--------------|-------------------|----------------------|
----------------------|-------------------|----------------------|
--2-------------------|-------------------|--0-------------------|


  W                   Q    H.              Q    Q    E  E  Q     
-------------------|--------------------|-----------------------|
--L----------------|--------------------|-----------------------|
-------------------|-------2------------|--L---------------1----|
-------------------|--0-----------------|---------------2-------|
-------------------|--------------------|------------4----------|
-------------------|--------------------|-----------------------|


  E  E  H.              W                  
---------------------|-------------------||
---------------------|-------------------||
---------------------|-------------------||
--------4------------|--L----------------||
-----4---------------|-------------------||
--2------------------|-------------------||


F#                              E
Bugün dağıldım bugün yoktum. Ömrüm dedim kat izlerin hep
D                     F#                                 
Ömrüm ömrüm yokluğun. Bugün siyahtım bugün bıktım
E                            D               F#
Ömrüm dedim kül izlerin hep. Ömrüm başucunda unuttum

D           C#m                   D      Bm         F#
Yoksun yoksun yanımda. Geçecek demiştin ya geçmedi duruyor hala
D               C#m                 D         Bm      F#
Yoksun yoksun yanımda. Bu puslu kalanlarla yoksun yanımda              
D            C#m                   F#
Unutma beni unutma, unutma beni unutma

F#                              E
Bugün pustum bugün korktum. Ömrüm dedin son sözlerin hep.
D                     F#                 
Ömrüm ömrüm yokluğun. Bugün üveydim bugün kıştım.
E                            D           F#
Ömrüm dedim sen istedin hep. Ömrüm sen vuruldun.

Emre Aydın - Beni Unutma Kullanılabilecek Ritim

-

Emre Aydın - Beni Unutma Şarkıda Kullanılan Akorlar

Bm: x24432 | xx0432 | 799777

C#m: x46654 | xx2120

D: xx0232 | x57775

E: 022100 | x76450 | x7999x

F#: 244322

Emre Aydın - Beni Unutma Akor Yorumları (2)

  1. pankler042 - Cevapla

    22.11.2014 20:53:35

    F# yerine Fm daha iyi gibi sanki

  2. Kaan24 - Cevapla

    28.10.2016 21:52:31

    Fm yerine F#m daha güzel oluyor

Yorum Yapın