Duman - Aman Aman

Duman

Duman - Aman Aman

INTRO: 
Tek gitar çalıyorsanız tablar akorlara basılıyken çalınacak (:
F#m             E              F#m            E
e--------------------------------------------------------------
b--2-2-2-3-2-0----0-0-0-2-0------------2-2-2-3-2-0-------------
g---------------------------2----------------------1-1-1-2-1---
d-----------------------------------------------------------4--
a--------------------------------------------------------------
e--------------------------------------------------------------


F#m             E              F#m            E
e--------------------------------------------------------------
b--2-2-2-3-2-0----0-0-0-2-0------------2-2-2-3-2-0-------------
g---------------------------2----------------------1-1-1-2-1---
d-----------------------------------------------------------4--
a--------------------------------------------------------------
e--------------------------------------------------------------

F#m                E
nereye gider basını alıp sorarsın
F#m               E
kimbilir durmadan nasıl susarsın
F#m            E
bilmeden bosuna atıp tutarsın
F#m    E          F#m    E 
su gibi akıp geçer zaman

e-------------------------------------------------------
b-------------------------------------------------------
g-1-1-1-2-1---------------------------------------------
d-----------4-------------------------------------------
a-------------------------------------------------------
e-------------------------------------------------------

F#m x8  - E

e-------------------------------------------------------
b-------------------------------------------------------
g---------1-2-------------------------------------------
d-2-2-2-4-----------------------------------------------
a-------------------------------------------------------
e-------------------------------------------------------

F#m         E
gezdin tozdun AMAN AMAN
F#m            E
sazdın sözdun AMAN AMAN
F#m            E
giderek üzdün bizi zaman

F#m         E
yazdın çizdin AMAN AMAN
F#m         E
incecik izdin AMAN AMAN
F#m            E
sıraya dizdin bizi zaman

--Intro Çalınacak--

F#m                E
hep kacıp yeni bir adım atarken
F#m                E
dibine kadar çileye batıp çıkarken
F#m                      E
içine atıp atıp yoluna basıp giderken
F#m    E         F#m     E
su gibi akıp gecer zaman

e-------------------------------------------------------
b-------------------------------------------------------
g-1-1-1-2-1---------------------------------------------
d-----------4-------------------------------------------
a-------------------------------------------------------
e-------------------------------------------------------

F#m x8  - E

e-------------------------------------------------------
b-------------------------------------------------------
g---------1-2-------------------------------------------
d-2-2-2-4-----------------------------------------------
a-------------------------------------------------------
e-------------------------------------------------------

F#m         E
gezdin tozdun AMAN AMAN
F#m            E
sazdın sözdun AMAN AMAN
F#m            E
giderek üzdün bizi zaman

F#m         E
yazdın çizdin AMAN AMAN
F#m         E
incecik izdin AMAN AMAN
F#m            E
sıraya dizdin bizi zaman

Katkılarından Ötürü Mustafa Hakan Karak'a Teşekkür Ederiz.

Duman - Aman Aman Kullanılabilecek Ritim

-

Duman - Aman Aman Şarkıda Kullanılan Akorlar

E: 022100 | x76450 | x7999x

F#m: 244222

Duman - Aman Aman Akor Yorumları (0)

Yorum Yapın