Mabel Matiz - Aşk Yok Olmaktır

Mabel Matiz

Mabel Matiz - Aşk Yok Olmaktır

Am         G            F           Dm
E------------------------------------------------
B----------------------------------3-1-0---------
G-----2--5-4-2-4---5-4-2-4--2-4-5--------2-0-----
D--2-----------------------------------------3---
A------------------------------------------------
E------------------------------------------------
 
  Am         G            F           Dm
E------------------------------------------------
B----------------------------------3-1-0---------
G-----2--5-4-2-4---5-4-2-4--2-4-5--------2-0-----   
D--2-----------------------------------------3---
A------------------------------------------------
E------------------------------------------------
  Yey yey yeyiyiyeyy yeyiyiyey yiyeey yeiyeiyeyi
  Am         G            F           Dm
E------------------------------------------------
B----------------------------------3-1-0---------
G-----2--5-4-2-4---5-4-2-4--2-4-5--------2-0-----   
D--2-----------------------------------------3---
A------------------------------------------------
E------------------------------------------------
  Yey yey yeyiyiyeyy yeyiyiyey yiyeey yeiyeiyeyia.
  Am         G            F           Dm
E---------------------------------------------
B-----------------------------3-1-0-----------
G------5-4-2-4---5-4-2-4--2-4-5--------2-0----
D---2-----------------------------------3h5---
A---------------------------------------------
E---------------------------------------------
Am
Çok kararlısın
             F               G
Kalbimi çıra gibi yakmaya niye 
Am
Duvar çekiyorsam 
               F               G
Yanıyorum için için, bitti işim 
Am
Saklar mı yüreğin
B-1-1-0------0----
G--------2--------
    F                 G
Yüreğimi içinin her yerinde 
Am
Eski kelimeler 
B---0--3--1--0------------
G---------------2--0------
D---------------------3---
   F                G
Döndürüyor başımı sen söylediğinde 
Am          G
Korkular... Arzular.. 
F
Nasıl başım dar 
Dm
Bilsen şaşarsın yar 
Am        G        F
Her yerim kördüğüm dolaşık 
           Dm
İpin ucunu bul çözeyim 
E---0----3----5------ -kalın e teli        x4
Am
Her ayrıntım sayıklıyor 
G
Sükunetim deliliğimden 
F
Aşk yok olmak diyor biri 
Dm            F
Yar ben yokum yok zaten 
Am
Ayyaş ruhum sayıklıyor 
G
Her zerrem sende çarpıyor 
F
Aşk yok olmaksa şimdiden 
Dm            F
Yar ben yokum ben de zaten 
 Am         G            F           Dm
E------------------------------------------------
B----------------------------------3-1-0---------
G-----2--5-4-2-4---5-4-2-4--2-4-5--------2-0-----   
D--2-----------------------------------------3---
A------------------------------------------------
E------------------------------------------------
  Am         G            F           Dm
E------------------------------------------------
B-----------------------------3-1-0--------------
G------5-4-2-4---5-4-2-4--2-4-5--------2-0-------
D---2-----------------------------------3h5------
A------------------------------------------------
E------------------------------------------------
Am                          F                  G
Bin çalıntı aşk tecrübesi bakıyor gözlerime ah 
Am                          F                  G
Soru soruyorsam tuzağına düşeceğim bana günah 
Am
Saklar mı yüreğin
B-1-1-0------0----
G--------2--------
    F                 G
Yüreğimi içinin her yerinde 
Am
Eski kelimeler 
B---0--3--1--0------------
G---------------2--0------
D---------------------3---
   F                G
Döndürüyor başımı sen söylediğinde 
Am          G
Korkular... Arzular.. 
F
Nasıl başım dar 
Dm
Bilsen şaşarsın yar 
Am        G        F
Her yerim kördüğüm dolaşık 
           Dm
İpin ucunu bul çözeyim 
E---0----3----5------ -kalın e teli        x4
Am
Her ayrıntım sayıklıyor 
G
Sükunetim deliliğimden 
F
Aşk yok olmak diyor biri 
Dm            F
Yar ben yokum yok zaten 
Am
Ayyaş ruhum sayıklıyor 
G
Her zerrem sende çarpıyor 
F
Aşk yok olmaksa şimdiden 
Dm            F
Yar ben yokum ben de zaten 
 Am         G            F           Dm
E------------------------------------------------
B----------------------------------3-1-0---------
G-----2--5-4-2-4---5-4-2-4--2-4-5--------2-0-----   
D--2-----------------------------------------3---
A------------------------------------------------
E------------------------------------------------
  Am         G            F           Dm
E------------------------------------------------
B-----------------------------3-1-0--------------
G------5-4-2-4---5-4-2-4--2-4-5--------2-0-------
D---2-----------------------------------3h5------
A------------------------------------------------
E------------------------------------------------


Mabel Matiz - Aşk Yok Olmaktır Kullanılabilecek Ritim

-

Mabel Matiz - Aşk Yok Olmaktır Şarkıda Kullanılan Akorlar

B: x24442 | 799877

F: 133211

Am: x02210 | 577555

D: xx0232 | x57775

A: x02220 | 577655

G: 320003 | 320033 | 355433

E: 022100 | x76450 | x7999x

Dm: xx0231 | x57765

Mabel Matiz - Aşk Yok Olmaktır Akor Yorumları (2)

  1. tirajem - Cevapla

    11.06.2014 09:38:25

    akorları kopyalayamıyorum

  2. a.YÜKSEL - Cevapla

    21.07.2014 18:31:31

    Sololar gerçekten çok başarılı. Teşekkürler Orjinalton.com :)

Yorum Yapın